Guitar tablature for Soos bloed by Theuns Jordaan
#----------------------------------PLEASE NOTE---------------------------------#
#This file is the author's own work and represents their interpretation of the #
#song. You may only use this file for private study, scholarship, or research. #
#------------------------------------------------------------------------------##

     SONG: Soos Bloed
   ARTIST: Theuns Jordaan
    ALBUM: Tjalatyd
  WEBSITE:

     TYPE: Guitar Tablature
TABBED BY: Wurm
    EMAIL: Wurmsab@hotmail.com
COMMENTS: Nie so moeiike liedjie!Stuur Asb. enige foute vir my!
           Stuur binne-kort die solo!

  Chords
  C-x35553
  F-133211
  G-355433
  
  Verse:
   C           f            G            C
e:-3-----------1------------3------------3-------
b:-5-----------1------------3------------5-------
g:-5-----------2------------4------------5-------
d:-5-----------3------------5------------5-------
a:-3-----------3------------5------------3-------
e:-x-----------1------------3------------x-------
     8x           8x           8x


  Chorus:
   F           C            G            F            C
e:-1-----------3------------3------------1------------3-----
b:-1-----------5------------3------------1------------5-----
g:-2-----------5------------2------------2------------5-----
d:-3-----------5------------5------------3------------5-----
a:-3-----------3------------5------------3------------3-----
e:-1-----------x------------3------------1------------x-----


---------------------------
This file passed through:
       Absolute Tabs
   http://www.tabs.co.za
---------------------------